Elita 5

Al Kapone

C'me shikon ashtu si ndonje skifter
Qe zogjet e vegjel ne kthetrra i merr. Je teper xheloze per te qene e mire
Prandaj leme te qete kur jam duke pire
Kur jam duke pire... REF. 2x:
Ti s'mund ta pushtosh aq lehte zemren time
Si konkuistadori Ameriken Latine
S'ta kam vjedhur zemren une ty me revole
Pasi shpesh me thua se jam Al Kapone Me dukesh si bleta qe m'ushqen me mjalte
E pastaj me djeg me therren e zjarrte Keshillat e mia vashe mos i harro
Prandaj korrigjohu e mos me zemero
E mos me zemero... REF. 2x:
Ti s'mund ta pushtosh aq lehte zemren time
Si konkuistadori Ameriken Latine
S'ta kam vjedhur zemren une ty me revole
Pasi shpesh me thua se jam Al Kapone

Akordet --------------------------------|--------------------------------|
-86898--4--6---86898--6-|4-4--64686----------64686|
-----------------------------5-|5--------------5-5h7----------|
--------------------------------|--------------------------------|
--------------------------------|--------------------------------|
--------------------------------|--------------------------------|
-----|---------------------------|
-4--6|-86898--4-6-86898--|
-5--5|--------------------------|
-----|---------------------------|
-----|---------------------------|
-----|---------------------------|
| |
|---------------------|
|---------------------|guitar
|---------------------|two
|-x-x-x--x-x-x--x-x-x-|distortion
|-x-x-x--x-x-x--x-x-x-|
|---------------------| ------------------------------------|-------------|
-6--4-4--64686---------64686|-6--4-4--1-|
-5--5--------------5-5h7--------|-5--5-5--0-|
------------------------------------|-------------|
------------------------------------|-------------|
------------------------------------|-------------|
|
--------------------------|
--------------------------|
--------------------------|
--4-----------------------|
--2----x-x-x--x-x-x--x-x-x|
-------x-x-x--x-x-x--x-x-x| ---15half--13h15halfbend------------------------------------|-
---------------------------------16--15--13----16half-18~~-|-
--------------------------------------------------------------------|
--------------------------------------------------------------------|
--------------------------------------------------------------------|
--------------------------------------------------------------------| dy kitare me duket me mire
-------------------------------|---------------------------------------|
----20--16-----15-----------|---16h20-------15-----------------|
----------------------17--20-|------------19-------17--20--------|
-------------------------------|---------------------------------------|
-------------------------------|---------------------------------------|
-------------------------------|---------------------------------------|
| | |
-------------------------------|---------------------------------------|
-------------------------------|---------------------------------------|
----12--8-------7-----------|------8h12--------7------------------|
----------------------10--13|--------------12------10--13--------|
-------------------------------|---------------------------------------|
-------------------------------|---------------------------------------|
-------------------------------|----------------------------------------|
-----20--16-----------------|---20p16p15---20p16p15p--------|
------------------15---------|------------------------------------------|
----------------------17--20|------------------------------------------|
-------------------------------|-----------------------------------------|
------------------------------|------------------------------------------|

Albumet:

Ju pëlqen teksti? Komentoni më poshtë: